ISO-10303-21;
HEADER;
/* Generated by software containing ST-Developer
 * from STEP Tools, Inc. (www.steptools.com) 
 */

FILE_DESCRIPTION(
/* description */ (''),
/* implementation_level */ '2;1');

FILE_NAME(
/* name */ 'SFS2020-1.8',
/* time_stamp */ '2007-10-26T10:53:25+08:00',
/* author */ (''),
/* organization */ (''),
/* preprocessor_version */ 'ST-DEVELOPER v9',
/* originating_system */ 'UGS - NX 3.0',
/* authorisation */ '');

FILE_SCHEMA (('CONFIG_CONTROL_DESIGN'));
ENDSEC;

DATA;
#10=SHAPE_REPRESENTATION_RELATIONSHIP('none',
'relationship between jaso37B0hu6v-none and jaso37B0hu6v-none',#94,#11);
#11=ADVANCED_BREP_SHAPE_REPRESENTATION('jaso37B0hu6v-none',(#97,#98,#99),
#351);
#12=CC_DESIGN_APPROVAL(#24,(#82));
#13=CC_DESIGN_APPROVAL(#25,(#84));
#14=CC_DESIGN_APPROVAL(#26,(#31));
#15=APPROVAL_PERSON_ORGANIZATION(#69,#24,#18);
#16=APPROVAL_PERSON_ORGANIZATION(#70,#25,#19);
#17=APPROVAL_PERSON_ORGANIZATION(#71,#26,#20);
#18=APPROVAL_ROLE('approver');
#19=APPROVAL_ROLE('approver');
#20=APPROVAL_ROLE('approver');
#21=APPROVAL_DATE_TIME(#39,#24);
#22=APPROVAL_DATE_TIME(#40,#25);
#23=APPROVAL_DATE_TIME(#41,#26);
#24=APPROVAL(#27,' ');
#25=APPROVAL(#28,' ');
#26=APPROVAL(#29,' ');
#27=APPROVAL_STATUS('not_yet_approved');
#28=APPROVAL_STATUS('not_yet_approved');
#29=APPROVAL_STATUS('not_yet_approved');
#30=CC_DESIGN_SECURITY_CLASSIFICATION(#31,(#84));
#31=SECURITY_CLASSIFICATION(' ',' ',#32);
#32=SECURITY_CLASSIFICATION_LEVEL('confidential');
#33=CC_DESIGN_DATE_AND_TIME_ASSIGNMENT(#37,#35,(#82));
#34=CC_DESIGN_DATE_AND_TIME_ASSIGNMENT(#38,#36,(#31));
#35=DATE_TIME_ROLE('creation_date');
#36=DATE_TIME_ROLE('classification_date');
#37=DATE_AND_TIME(#52,#42);
#38=DATE_AND_TIME(#53,#43);
#39=DATE_AND_TIME(#54,#44);
#40=DATE_AND_TIME(#55,#45);
#41=DATE_AND_TIME(#56,#46);
#42=LOCAL_TIME(0,0,0.,#47);
#43=LOCAL_TIME(0,0,0.,#48);
#44=LOCAL_TIME(0,0,0.,#49);
#45=LOCAL_TIME(0,0,0.,#50);
#46=LOCAL_TIME(0,0,0.,#51);
#47=COORDINATED_UNIVERSAL_TIME_OFFSET(0,0,.BEHIND.);
#48=COORDINATED_UNIVERSAL_TIME_OFFSET(0,0,.BEHIND.);
#49=COORDINATED_UNIVERSAL_TIME_OFFSET(0,0,.BEHIND.);
#50=COORDINATED_UNIVERSAL_TIME_OFFSET(0,0,.BEHIND.);
#51=COORDINATED_UNIVERSAL_TIME_OFFSET(0,0,.BEHIND.);
#52=CALENDAR_DATE(0,1,1);
#53=CALENDAR_DATE(0,1,1);
#54=CALENDAR_DATE(0,1,1);
#55=CALENDAR_DATE(0,1,1);
#56=CALENDAR_DATE(0,1,1);
#57=CC_DESIGN_PERSON_AND_ORGANIZATION_ASSIGNMENT(#65,#61,(#82,#84));
#58=CC_DESIGN_PERSON_AND_ORGANIZATION_ASSIGNMENT(#66,#62,(#86));
#59=CC_DESIGN_PERSON_AND_ORGANIZATION_ASSIGNMENT(#67,#63,(#84));
#60=CC_DESIGN_PERSON_AND_ORGANIZATION_ASSIGNMENT(#68,#64,(#31));
#61=PERSON_AND_ORGANIZATION_ROLE('creator');
#62=PERSON_AND_ORGANIZATION_ROLE('design_owner');
#63=PERSON_AND_ORGANIZATION_ROLE('design_supplier');
#64=PERSON_AND_ORGANIZATION_ROLE('classification_officer');
#65=PERSON_AND_ORGANIZATION(#79,#72);
#66=PERSON_AND_ORGANIZATION(#79,#73);
#67=PERSON_AND_ORGANIZATION(#79,#74);
#68=PERSON_AND_ORGANIZATION(#79,#75);
#69=PERSON_AND_ORGANIZATION(#79,#76);
#70=PERSON_AND_ORGANIZATION(#79,#77);
#71=PERSON_AND_ORGANIZATION(#79,#78);
#72=ORGANIZATION(' ',' ',' ');
#73=ORGANIZATION(' ',' ',' ');
#74=ORGANIZATION(' ',' ',' ');
#75=ORGANIZATION(' ',' ',' ');
#76=ORGANIZATION(' ',' ',' ');
#77=ORGANIZATION(' ',' ',' ');
#78=ORGANIZATION(' ',' ',' ');
#79=PERSON(' ',' ',' ',(' '),$,$);
#80=SHAPE_DEFINITION_REPRESENTATION(#81,#94);
#81=PRODUCT_DEFINITION_SHAPE('','',#82);
#82=PRODUCT_DEFINITION(' ','',#84,#83);
#83=DESIGN_CONTEXT('',#93,'design');
#84=PRODUCT_DEFINITION_FORMATION_WITH_SPECIFIED_SOURCE(' ',' ',#86,.NOT_KNOWN.);
#85=PRODUCT_RELATED_PRODUCT_CATEGORY('detail','',(#86));
#86=PRODUCT('jaso37B0hu6v','jaso37B0hu6v',' ',(#91));
#87=PRODUCT_CATEGORY_RELATIONSHIP(' ',' ',#89,#90);
#88=PRODUCT_CATEGORY_RELATIONSHIP('','',#90,#85);
#89=PRODUCT_CATEGORY('part',' ');
#90=PRODUCT_CATEGORY(' ','');
#91=MECHANICAL_CONTEXT(' ',#93,'mechanical');
#92=APPLICATION_PROTOCOL_DEFINITION('international standard',
'config_control_design',1994,#93);
#93=APPLICATION_CONTEXT(
'configuration controlled 3D designs of mechanical parts and assemblies
');
#94=SHAPE_REPRESENTATION('jaso37B0hu6v-none',(#235),#351);
#95=CONICAL_SURFACE('',#259,8.99999999999999,45.);
#96=CONICAL_SURFACE('',#260,9.99999999999999,45.);
#97=MANIFOLD_SOLID_BREP('',#100);
#98=MANIFOLD_SOLID_BREP('',#101);
#99=MANIFOLD_SOLID_BREP('',#102);
#100=CLOSED_SHELL('',(#108,#109,#110,#111));
#101=CLOSED_SHELL('',(#112,#113,#114,#115));
#102=CLOSED_SHELL('',(#116,#117,#118,#119,#120));
#103=CYLINDRICAL_SURFACE('',#240,10.5);
#104=CYLINDRICAL_SURFACE('',#243,17.4999999999999);
#105=CYLINDRICAL_SURFACE('',#248,10.5);
#106=CYLINDRICAL_SURFACE('',#251,17.4999999999999);
#107=CYLINDRICAL_SURFACE('',#258,9.99999999999999);
#108=ADVANCED_FACE('',(#143,#127),#121,.T.);
#109=ADVANCED_FACE('',(#128,#129),#103,.F.);
#110=ADVANCED_FACE('',(#130,#144),#122,.T.);
#111=ADVANCED_FACE('',(#131,#132),#104,.T.);
#112=ADVANCED_FACE('',(#145,#133),#123,.T.);
#113=ADVANCED_FACE('',(#134,#135),#105,.F.);
#114=ADVANCED_FACE('',(#136,#146),#124,.T.);
#115=ADVANCED_FACE('',(#137,#138),#106,.T.);
#116=ADVANCED_FACE('',(#147),#125,.F.);
#117=ADVANCED_FACE('',(#148),#126,.T.);
#118=ADVANCED_FACE('',(#139,#140),#107,.T.);
#119=ADVANCED_FACE('',(#149,#141),#95,.T.);
#120=ADVANCED_FACE('',(#142,#150),#96,.T.);
#121=PLANE('',#238);
#122=PLANE('',#242);
#123=PLANE('',#246);
#124=PLANE('',#250);
#125=PLANE('',#253);
#126=PLANE('',#255);
#127=FACE_BOUND('',#152,.T.);
#128=FACE_BOUND('',#153,.T.);
#129=FACE_BOUND('',#154,.T.);
#130=FACE_BOUND('',#155,.T.);
#131=FACE_BOUND('',#157,.T.);
#132=FACE_BOUND('',#158,.T.);
#133=FACE_BOUND('',#160,.T.);
#134=FACE_BOUND('',#161,.T.);
#135=FACE_BOUND('',#162,.T.);
#136=FACE_BOUND('',#163,.T.);
#137=FACE_BOUND('',#165,.T.);
#138=FACE_BOUND('',#166,.T.);
#139=FACE_BOUND('',#169,.T.);
#140=FACE_BOUND('',#170,.T.);
#141=FACE_BOUND('',#172,.T.);
#142=FACE_BOUND('',#173,.T.);
#143=FACE_OUTER_BOUND('',#151,.T.);
#144=FACE_OUTER_BOUND('',#156,.T.);
#145=FACE_OUTER_BOUND('',#159,.T.);
#146=FACE_OUTER_BOUND('',#164,.T.);
#147=FACE_OUTER_BOUND('',#167,.T.);
#148=FACE_OUTER_BOUND('',#168,.T.);
#149=FACE_OUTER_BOUND('',#171,.T.);
#150=FACE_OUTER_BOUND('',#174,.T.);
#151=EDGE_LOOP('',(#175));
#152=EDGE_LOOP('',(#176));
#153=EDGE_LOOP('',(#177));
#154=EDGE_LOOP('',(#178));
#155=EDGE_LOOP('',(#179));
#156=EDGE_LOOP('',(#180));
#157=EDGE_LOOP('',(#181));
#158=EDGE_LOOP('',(#182));
#159=EDGE_LOOP('',(#183));
#160=EDGE_LOOP('',(#184));
#161=EDGE_LOOP('',(#185));
#162=EDGE_LOOP('',(#186));
#163=EDGE_LOOP('',(#187));
#164=EDGE_LOOP('',(#188));
#165=EDGE_LOOP('',(#189));
#166=EDGE_LOOP('',(#190));
#167=EDGE_LOOP('',(#191));
#168=EDGE_LOOP('',(#192));
#169=EDGE_LOOP('',(#193));
#170=EDGE_LOOP('',(#194));
#171=EDGE_LOOP('',(#195));
#172=EDGE_LOOP('',(#196));
#173=EDGE_LOOP('',(#197));
#174=EDGE_LOOP('',(#198));
#175=ORIENTED_EDGE('',*,*,#211,.T.);
#176=ORIENTED_EDGE('',*,*,#212,.T.);
#177=ORIENTED_EDGE('',*,*,#213,.F.);
#178=ORIENTED_EDGE('',*,*,#212,.F.);
#179=ORIENTED_EDGE('',*,*,#213,.T.);
#180=ORIENTED_EDGE('',*,*,#214,.F.);
#181=ORIENTED_EDGE('',*,*,#211,.F.);
#182=ORIENTED_EDGE('',*,*,#214,.T.);
#183=ORIENTED_EDGE('',*,*,#215,.T.);
#184=ORIENTED_EDGE('',*,*,#216,.T.);
#185=ORIENTED_EDGE('',*,*,#217,.F.);
#186=ORIENTED_EDGE('',*,*,#216,.F.);
#187=ORIENTED_EDGE('',*,*,#217,.T.);
#188=ORIENTED_EDGE('',*,*,#218,.F.);
#189=ORIENTED_EDGE('',*,*,#215,.F.);
#190=ORIENTED_EDGE('',*,*,#218,.T.);
#191=ORIENTED_EDGE('',*,*,#219,.T.);
#192=ORIENTED_EDGE('',*,*,#220,.T.);
#193=ORIENTED_EDGE('',*,*,#221,.T.);
#194=ORIENTED_EDGE('',*,*,#222,.T.);
#195=ORIENTED_EDGE('',*,*,#221,.F.);
#196=ORIENTED_EDGE('',*,*,#219,.F.);
#197=ORIENTED_EDGE('',*,*,#220,.F.);
#198=ORIENTED_EDGE('',*,*,#222,.F.);
#199=VERTEX_POINT('',#315);
#200=VERTEX_POINT('',#317);
#201=VERTEX_POINT('',#320);
#202=VERTEX_POINT('',#323);
#203=VERTEX_POINT('',#327);
#204=VERTEX_POINT('',#329);
#205=VERTEX_POINT('',#332);
#206=VERTEX_POINT('',#335);
#207=VERTEX_POINT('',#339);
#208=VERTEX_POINT('',#342);
#209=VERTEX_POINT('',#345);
#210=VERTEX_POINT('',#347);
#211=EDGE_CURVE('',#199,#199,#223,.T.);
#212=EDGE_CURVE('',#200,#200,#224,.T.);
#213=EDGE_CURVE('',#201,#201,#225,.T.);
#214=EDGE_CURVE('',#202,#202,#226,.T.);
#215=EDGE_CURVE('',#203,#203,#227,.T.);
#216=EDGE_CURVE('',#204,#204,#228,.T.);
#217=EDGE_CURVE('',#205,#205,#229,.T.);
#218=EDGE_CURVE('',#206,#206,#230,.T.);
#219=EDGE_CURVE('',#207,#207,#231,.T.);
#220=EDGE_CURVE('',#208,#208,#232,.T.);
#221=EDGE_CURVE('',#209,#209,#233,.T.);
#222=EDGE_CURVE('',#210,#210,#234,.T.);
#223=CIRCLE('',#236,17.5);
#224=CIRCLE('',#237,10.5);
#225=CIRCLE('',#239,10.5);
#226=CIRCLE('',#241,17.4999999999998);
#227=CIRCLE('',#244,17.5);
#228=CIRCLE('',#245,10.5);
#229=CIRCLE('',#247,10.5);
#230=CIRCLE('',#249,17.4999999999998);
#231=CIRCLE('',#252,8.99999999999999);
#232=CIRCLE('',#254,8.99999999999999);
#233=CIRCLE('',#256,9.99999999999999);
#234=CIRCLE('',#257,9.99999999999999);
#235=AXIS2_PLACEMENT_3D('',#313,#261,#262);
#236=AXIS2_PLACEMENT_3D('',#314,#263,#264);
#237=AXIS2_PLACEMENT_3D('',#316,#265,#266);
#238=AXIS2_PLACEMENT_3D('',#318,#267,#268);
#239=AXIS2_PLACEMENT_3D('',#319,#269,#270);
#240=AXIS2_PLACEMENT_3D('',#321,#271,#272);
#241=AXIS2_PLACEMENT_3D('',#322,#273,#274);
#242=AXIS2_PLACEMENT_3D('',#324,#275,#276);
#243=AXIS2_PLACEMENT_3D('',#325,#277,#278);
#244=AXIS2_PLACEMENT_3D('',#326,#279,#280);
#245=AXIS2_PLACEMENT_3D('',#328,#281,#282);
#246=AXIS2_PLACEMENT_3D('',#330,#283,#284);
#247=AXIS2_PLACEMENT_3D('',#331,#285,#286);
#248=AXIS2_PLACEMENT_3D('',#333,#287,#288);
#249=AXIS2_PLACEMENT_3D('',#334,#289,#290);
#250=AXIS2_PLACEMENT_3D('',#336,#291,#292);
#251=AXIS2_PLACEMENT_3D('',#337,#293,#294);
#252=AXIS2_PLACEMENT_3D('',#338,#295,#296);
#253=AXIS2_PLACEMENT_3D('',#340,#297,#298);
#254=AXIS2_PLACEMENT_3D('',#341,#299,#300);
#255=AXIS2_PLACEMENT_3D('',#343,#301,#302);
#256=AXIS2_PLACEMENT_3D('',#344,#303,#304);
#257=AXIS2_PLACEMENT_3D('',#346,#305,#306);
#258=AXIS2_PLACEMENT_3D('',#348,#307,#308);
#259=AXIS2_PLACEMENT_3D('',#349,#309,#310);
#260=AXIS2_PLACEMENT_3D('',#350,#311,#312);
#261=DIRECTION('',(0.,0.,1.));
#262=DIRECTION('',(1.,0.,0.));
#263=DIRECTION('',(1.,0.,0.));
#264=DIRECTION('',(0.,0.,-1.));
#265=DIRECTION('',(-1.,0.,0.));
#266=DIRECTION('',(0.,0.,-1.));
#267=DIRECTION('',(1.,0.,0.));
#268=DIRECTION('',(0.,0.,-1.));
#269=DIRECTION('',(1.,0.,0.));
#270=DIRECTION('',(0.,0.,-1.));
#271=DIRECTION('',(1.,0.,0.));
#272=DIRECTION('',(0.,0.,-1.));
#273=DIRECTION('',(1.,0.,0.));
#274=DIRECTION('',(0.,0.,-1.));
#275=DIRECTION('',(-1.,0.,0.));
#276=DIRECTION('',(0.,0.,1.));
#277=DIRECTION('',(1.,0.,0.));
#278=DIRECTION('',(0.,0.,-1.));
#279=DIRECTION('',(1.,0.,0.));
#280=DIRECTION('',(0.,0.,-1.));
#281=DIRECTION('',(-1.,0.,0.));
#282=DIRECTION('',(0.,0.,-1.));
#283=DIRECTION('',(1.,0.,0.));
#284=DIRECTION('',(0.,0.,-1.));
#285=DIRECTION('',(1.,0.,0.));
#286=DIRECTION('',(0.,0.,-1.));
#287=DIRECTION('',(1.,0.,0.));
#288=DIRECTION('',(0.,0.,-1.));
#289=DIRECTION('',(1.,0.,0.));
#290=DIRECTION('',(0.,0.,-1.));
#291=DIRECTION('',(-1.,0.,0.));
#292=DIRECTION('',(0.,0.,1.));
#293=DIRECTION('',(1.,0.,0.));
#294=DIRECTION('',(0.,0.,-1.));
#295=DIRECTION('',(1.,0.,0.));
#296=DIRECTION('',(0.,0.,1.));
#297=DIRECTION('',(-1.,0.,0.));
#298=DIRECTION('',(0.,0.,1.));
#299=DIRECTION('',(-1.,0.,0.));
#300=DIRECTION('',(0.,0.,1.));
#301=DIRECTION('',(-1.,0.,0.));
#302=DIRECTION('',(0.,0.,1.));
#303=DIRECTION('',(-1.,0.,0.));
#304=DIRECTION('',(0.,0.,1.));
#305=DIRECTION('',(1.,0.,0.));
#306=DIRECTION('',(0.,0.,1.));
#307=DIRECTION('',(1.,0.,0.));
#308=DIRECTION('',(0.,0.,-1.));
#309=DIRECTION('',(-1.,0.,0.));
#310=DIRECTION('',(0.,0.,1.));
#311=DIRECTION('',(1.,0.,0.));
#312=DIRECTION('',(2.74807679362663E-017,0.,-1.));
#313=CARTESIAN_POINT('',(0.,0.,0.));
#314=CARTESIAN_POINT('',(-14.239143706646,0.,0.));
#315=CARTESIAN_POINT('',(-14.239143706646,0.,-17.5));
#316=CARTESIAN_POINT('',(-14.239143706646,0.,0.));
#317=CARTESIAN_POINT('',(-14.239143706646,0.,-10.5));
#318=CARTESIAN_POINT('',(-14.239143706646,0.,0.));
#319=CARTESIAN_POINT('',(-20.0891437066455,0.,0.));
#320=CARTESIAN_POINT('',(-20.0891437066455,0.,-10.5));
#321=CARTESIAN_POINT('',(-29.0000000000006,0.,0.));
#322=CARTESIAN_POINT('',(-20.0891437066455,0.,0.));
#323=CARTESIAN_POINT('',(-20.0891437066455,0.,-17.4999999999998));
#324=CARTESIAN_POINT('',(-20.0891437066455,13.9999999999999,0.));
#325=CARTESIAN_POINT('',(-29.0000000000006,0.,0.));
#326=CARTESIAN_POINT('',(-65.2391437066454,0.,0.));
#327=CARTESIAN_POINT('',(-65.2391437066454,0.,-17.5));
#328=CARTESIAN_POINT('',(-65.2391437066454,0.,0.));
#329=CARTESIAN_POINT('',(-65.2391437066454,0.,-10.5));
#330=CARTESIAN_POINT('',(-65.2391437066454,0.,0.));
#331=CARTESIAN_POINT('',(-71.0891437066449,0.,0.));
#332=CARTESIAN_POINT('',(-71.0891437066449,0.,-10.5));
#333=CARTESIAN_POINT('',(-80.,0.,0.));
#334=CARTESIAN_POINT('',(-71.0891437066449,0.,0.));
#335=CARTESIAN_POINT('',(-71.0891437066449,0.,-17.4999999999998));
#336=CARTESIAN_POINT('',(-71.0891437066449,13.9999999999999,0.));
#337=CARTESIAN_POINT('',(-80.,0.,0.));
#338=CARTESIAN_POINT('',(0.,0.,0.));
#339=CARTESIAN_POINT('',(0.,0.,8.99999999999999));
#340=CARTESIAN_POINT('',(0.,4.99999999999999,0.));
#341=CARTESIAN_POINT('',(-100.15,0.,0.));
#342=CARTESIAN_POINT('',(-100.15,0.,8.99999999999999));
#343=CARTESIAN_POINT('',(-100.15,5.,0.));
#344=CARTESIAN_POINT('',(-1.,0.,0.));
#345=CARTESIAN_POINT('',(-1.,0.,9.99999999999999));
#346=CARTESIAN_POINT('',(-99.15,0.,0.));
#347=CARTESIAN_POINT('',(-99.15,0.,9.99999999999999));
#348=CARTESIAN_POINT('',(-80.,0.,0.));
#349=CARTESIAN_POINT('',(0.,0.,0.));
#350=CARTESIAN_POINT('',(-99.15,0.,0.));
#351=(
GEOMETRIC_REPRESENTATION_CONTEXT(3)
GLOBAL_UNCERTAINTY_ASSIGNED_CONTEXT((#352))
GLOBAL_UNIT_ASSIGNED_CONTEXT((#358,#354,#353))
REPRESENTATION_CONTEXT('SFS2020-1','TOP_LEVEL_ASSEMBLY_PART')
);
#352=UNCERTAINTY_MEASURE_WITH_UNIT(LENGTH_MEASURE(2.E-005),#358,
'DISTANCE_ACCURACY_VALUE','Maximum Tolerance applied to model');
#353=(
NAMED_UNIT(*)
SI_UNIT($,.STERADIAN.)
SOLID_ANGLE_UNIT()
);
#354=(
CONVERSION_BASED_UNIT('DEGREE',#356)
NAMED_UNIT(#355)
PLANE_ANGLE_UNIT()
);
#355=DIMENSIONAL_EXPONENTS(0.,0.,0.,0.,0.,0.,0.);
#356=PLANE_ANGLE_MEASURE_WITH_UNIT(PLANE_ANGLE_MEASURE(0.0174532925),#357);
#357=(
NAMED_UNIT(*)
PLANE_ANGLE_UNIT()
SI_UNIT($,.RADIAN.)
);
#358=(
LENGTH_UNIT()
NAMED_UNIT(*)
SI_UNIT(.MILLI.,.METRE.)
);
ENDSEC;
END-ISO-10303-21;
